#This file is the author's own work and represents their interpretation of the #
#song. You may only use this file for private study, scholarship, or research. #
#------------------------------------------------------------------------------#

ANCESTRAL TRIP (WITHOUT SOLO)
FROM THE ALBUM "CORVI ET CYGNES"
COPYRIGHT 2002
TABBED BY LITURGIA
Afar

E||---------------------------------------------------|
B||---------------------------------------------------|
G||*--------------------------------------------------|
D||*--8-8-8-8-8-8-8-8-8-8-8-8-8-8-8-8-8-8-8-8-8-8-8-8-|
A||---6-6-6-6-6-6-6-6-6-6-6-6-6-6-6-6-6-6-6-6-6-6-6-6-|
E||---------------------------------------------------|

--------------------------------------------------|
--------------------------------------------------|
--------------------------------------------------|
--8-8-8-8-8-8-8-8-8-8-8-8-8-8-8-8-8-8-8-8-8-8-8-8-|
--6-6-6-6-6-6-6-6-6-6-6-6-6-6-6-6-6-6-6-6-6-6-6-6-|
--------------------------------------------------|

--------------------------------------------------|
--------------------------------------------------|
--------------------------------------------------|
--9-9-9-9-9-9-9-9-9-9-9-9-9-9-9-9-9-9-9-9-9-9-9-9-|
--8-8-8-8-8-8-8-8-8-8-8-8-9-9-9-9-9-9-9-9-9-9-9-9-|
--------------------------------------------------|


3x
---------------------------------------------------||
---------------------------------------------------||
--------------------------------------------------*||
--9-9-9-9-9-9-9-9-9-9-9-9-9-9-9-9-9-9-9-9-9-9-9-9-*||
--8-8-8-8-8-8-8-8-8-8-8-8-9-9-9-9-9-9-9-9-9-9-9-9--||
---------------------------------------------------||

---------------------------------------------------|
---------------------------------------------------|
*--------------------------------------------------|
*--1-1-1-1-1-1-1-1-1-1-1-1-1-1-1-1-1-1-1-1-1-1-1-1-|
---3-3-3-3-3-3-3-3-3-3-3-3-3-3-3-3-3-3-3-3-3-3-3-3-|
---------------------------------------------------|


3x
----------------0------------------||------------------------8--12--8---------|
-------0-----------0-----0---------||--------------------10------------10-----|
--2-------2-----------2-----2-----*||--------------5--9--------------------9--|
--2----------2-----------------2--*||-----------7-----------------------------|
--0--------------------------------||--------7--------------------------------|
-----------------------------------||--5--8-----------------------------------|

--------------------|--8--12--8-----------------------------------|
--10----------------|------------10--------------------10---------|
--------------------|----------------9--------------9------9--10--|
--------------------|-------------------10------10----------------|
--------------------|-----------------------12--------------------|
--------------------|---------------------------------------------|

--------------------|--12----------13----------12----------13----------|
--------------------|------13----------15----------13----------15------|
--------------------|----------14----------16----------14----------16--|
--10----------------|--------------------------------------------------|
--------------------|--------------------------------------------------|
--------------------|--------------------------------------------------|

--12----------------|-------------------------10--13--10------10--|
--------------------|---------------------10--------------10------|
--------------------|--------------7--10--------------------------|
--------------------|--------8--7---------------------------------|
--------------------|-----5---------------------------------------|
--------------------|--5------------------------------------------|

--------------------||---------------------------------------------------|
--10----------------||---------------------------------------------------|
--------------------||*--------------------------------------------------|
--------------------||*--6-6-6-6-6-6-4-4-4-4-4-4-2-2-2-2-2-2-4-4-4-4-4-4-|
--------------------||---------------------------------------------------|
--------------------||---------------------------------------------------|

--------------------------------------------------|
--------------------------------------------------|
--------------------------------------------------|
--1-1-1-1-1-1-1-1-1-1-1-1-------------------------|
--------------------------2-2-2-2-2-2-2-2-2-2-2-2-|
--------------------------------------------------|

--------------------------------------------------|
--------------------------------------------------|
--------------------------------------------------|
--6-6-6-6-6-6-4-4-4-4-4-4-2-2-2-2-2-2-4-4-4-4-4-4-|
--------------------------------------------------|
--------------------------------------------------|

---------------------------------------------------||
---------------------------------------------------||
--------------------------------------------------*||
--1-1-1-1-1-1-1-1-1-1-1-1-6-6-6-6-6-6-6-6-6-6-6-6-*||
---------------------------------------------------||
---------------------------------------------------||

---------------------------------------------------|
---------------------------------------------------|
*--------------------------------------------------|
*--6-6-6-6-6-6-4-4-4-4-4-4-2-2-2-2-2-2-4-4-4-4-4-4-|
---------------------------------------------------|
---------------------------------------------------|

--------------------------------------------------|
--------------------------------------------------|
--------------------------------------------------|
--1-1-1-1-1-1-1-1-1-1-1-1-------------------------|
--------------------------2-2-2-2-2-2-2-2-2-2-2-2-|
--------------------------------------------------|

--------------------------------------------------|
--------------------------------------------------|
--------------------------------------------------|
--6-6-6-6-6-6-4-4-4-4-4-4-2-2-2-2-2-2-4-4-4-4-4-4-|
--------------------------------------------------|
--------------------------------------------------|


3x
---------------------------------------------------||
---------------------------------------------------||
--------------------------------------------------*||
--1-1-1-1-1-1-1-1-1-1-1-1-6-6-6-6-6-6-6-6-6-6-6-6-*||
---------------------------------------------------||
---------------------------------------------------||

-----------------------------------|----------------------------------|
-----------------------------------|----------------------------------|
*----------------------------------|----------------------------------|
*----------------------------------|----------------------------------|
---4--6--7--7--6--4--6----6--7--6--|--4--6--7--7--6--4--6----6--7--6--|
-----------------------------------|----------------------------------|


3x
----------------------------------|--------------------------------------||
----------------------------------|--------------------------------------||
----------------------------------|--------------------4----------------*||
--------2--1----------------------|-----------4--6--7-----7--6----------*||
--2--4--------2--2--4----2--4--2--|--4--6--7--------------------4--7-----||
----------------------------------|--------------------------------------||

-----------------------------------|----------------------------------|
-----------------------------------|----------------------------------|
*----------------------------------|----------------------------------|
*--7--6--4--7--6--4--6----6--4--6--|--7--6--4--7--6--4--6----6--4--6--|
-----------------------------------|----------------------------------|
-----------------------------------|----------------------------------|

----------------------------------|---------------------------------------||
----------------------------------|---------------------------------------||
----------------------------------|-----------4--------6--------7--------*||
--7--6--4--7--6--4--6----6--4--6--|--4--6--7-----7--6-----7--6-----7--6--*||
----------------------------------|---------------------------------------||
----------------------------------|---------------------------------------||

------|------|------|------|------|------|------|------|---------------------|
------|------|------|------|------|------|------|------|---------------------|
------|------|------|------|------|------|------|------|---------------------|
------|------|------|------|------|------|------|------|------------6--------|
------|------|------|------|------|------|------|------|--11--------8--------|
------|------|------|------|------|------|------|------|--9------------------|

------------------------------------------------|---------------------|
------------------------------------------------|---------------------|
------------------------------------------------|---------------------|
------------------------------------------------|------------6--------|
--10--------10-10-10-10-10-10-10-10-10-10-10-10-|--11--------8--------|
--8---------8--8--8--8--8--8--8--8--8--8--8--8--|--9------------------|

------------------------------------------------||----------------------|
------------------------------------------------||----------------------|
------------------------------------------------||*---------------------|
------------------------------------------------||*------------6--------|
--10--------10-10-10-10-10-10-10-10-10-10-10-10-||---11--------8--------|
--8---------8--8--8--8--8--8--8--8--8--8--8--8--||---9------------------|

-------------------------------------------------||
-------------------------------------------------||
------------------------------------------------*||
------------------------------------------------*||
--10--------10-10-10-10-10-10-10-10-10-10-10-10--||
--8---------8--8--8--8--8--8--8--8--8--8--8--8---||

------------------------------------------|
------------------------------------------|
*--10-------------8-----------------------|
*------8--10--11-----10--11--10--8--10----|
------------------------------------------|
------------------------------------------|

-----------------------------------------|-----------------------------|
-----------------------------------------|-----------------------------|
--10-------------8-----------------------|--------5--6--5--------------|
------8--10--11-----10--11--10--8--10----|--6--8-----------6--8--------|
-----------------------------------------|-----------------------------|
-----------------------------------------|-----------------------------|

----------------------------------||------------------------|
----------------------------------||------------------------|
---------------------------------*||-----------4------------|
--6--8--10--8--10--11--10--------*||--2--1--2---------------|
----------------------------------||------------------------|
----------------------------------||------------------------|

--------------------------|------------------------|--------------------------|
--------------------------|------------------------|--------------------------|
--------------------------|-----------4------------|--------------------------|
--2--1--2--4----2----1----|--2--1--2---------------|--2--1--2--4----2----6----|
--------------------------|------------------------|--------------------------|
--------------------------|------------------------|--------------------------|

|---------------------------------------------------|
|---------------------------------------------------|
|*--------------------------------------------------|
|*--8-8-8-8-8-8-8-8-8-8-8-8-8-8-8-8-8-8-8-8-8-8-8-8-|
|---6-6-6-6-6-6-6-6-6-6-6-6-6-6-6-6-6-6-6-6-6-6-6-6-|
|---------------------------------------------------|

--------------------------------------------------|
--------------------------------------------------|
--------------------------------------------------|
--8-8-8-8-8-8-8-8-8-8-8-8-8-8-8-8-8-8-8-8-8-8-8-8-|
--6-6-6-6-6-6-6-6-6-6-6-6-6-6-6-6-6-6-6-6-6-6-6-6-|
--------------------------------------------------|

--------------------------------------------------|
--------------------------------------------------|
--------------------------------------------------|
--9-9-9-9-9-9-9-9-9-9-9-9-9-9-9-9-9-9-9-9-9-9-9-9-|
--8-8-8-8-8-8-8-8-8-8-8-8-9-9-9-9-9-9-9-9-9-9-9-9-|
--------------------------------------------------|


3x
---------------------------------------------------||
---------------------------------------------------||
--------------------------------------------------*||
--9-9-9-9-9-9-9-9-9-9-9-9-9-9-9-9-9-9-9-9-9-9-9-9-*||
--8-8-8-8-8-8-8-8-8-8-8-8-9-9-9-9-9-9-9-9-9-9-9-9--||
---------------------------------------------------||

---------------------------------------------------|
---------------------------------------------------|
*--------------------------------------------------|
*--1-1-1-1-1-1-1-1-1-1-1-1-1-1-1-1-1-1-1-1-1-1-1-1-|
---3-3-3-3-3-3-3-3-3-3-3-3-3-3-3-3-3-3-3-3-3-3-3-3-|
---------------------------------------------------|


3x
----------------0------------------||---------------------------------------|
-------0-----------0-----0---------||---------------------------------------|
--2-------2-----------2-----2-----*||*--------------------------------------|
--2----------2-----------------2--*||*--------------------------------------|
--0--------------------------------||------3--5--5--5--3--2--3--3--2--2-----|
-----------------------------------||---5--------------------------------3--|


3x
--------------------||-----------------------------------|
--------------------||-----------------------------------|
-------------------*||*----------------------------------|
-------------------*||*----------------------------------|
--------------------||---4--6--7--7--6--4--6----6--7--6--|
--5-----------------||-----------------------------------|

----------------------------------|----------------------------------|
----------------------------------|----------------------------------|
----------------------------------|----------------------------------|
----------------------------------|--------2--1----------------------|
--4--6--7--7--6--4--6----6--7--6--|--2--4--------2--2--4----2--4--2--|
----------------------------------|----------------------------------|


3x
--------------------------------------||-----------------------------------|
--------------------------------------||-----------------------------------|
--------------------4----------------*||*----------------------------------|
-----------4--6--7-----7--6----------*||*--7--6--4--7--6--4--6----6--4--6--|
--4--6--7--------------------4--7-----||-----------------------------------|
--------------------------------------||-----------------------------------|

----------------------------------|----------------------------------|
----------------------------------|----------------------------------|
----------------------------------|----------------------------------|
--7--6--4--7--6--4--6----6--4--6--|--7--6--4--7--6--4--6----6--4--6--|
----------------------------------|----------------------------------|
----------------------------------|----------------------------------|

---------------------------------------||-------------------|-------||
---------------------------------------||-------------------|-------||
-----------4--------6--------7--------*||-------------------|-------||
--4--6--7-----7--6-----7--6-----7--6--*||--6----------------|--6----||
---------------------------------------||-------------------|-------||
---------------------------------------||-------------------|-------||


 
Copyright 2002 by Liturgia
All rights reserved
liturgia666@hotmail.com
 
bio disc lyrics tabs